rock composition

(/) Slide Up  (\) Slide Down  (h) Hammer On  (p) Pull Off  (b) Bend (r) Release (v) Vibrato


E|-----------------------------------------------------------------------------------
B|-----------------------------------------------------------------------------------
G|-----------------------------------------------------------------------------------
D|-----------------------------------------------------------------------------------
A|--3--5-----5-----5-----5--3--5-----5--3--5-----5-----5-----5--3--5-----5--3--5-----
E|--------0-----0-----0-----------0-----------0-----0-----0-----------0-----------0--



E|----------------------------------------------------
B|----------------------------------------------------
G|----------------------------------------------------
D|--3--5--3--3-5--3--5--0--12-3--5--3--3--5--3--5--0--
A|--3--5--3--3-5--3--5--0--12-3--5--3--3--5--3--5--0--
E|--3--5--3--3h5--3--5--0--12\3--5--3--3--5--3--5--0--



E|----------------------------------------
B|----------------------------------------
G|----------------------------------------
D|--0--0--0--0--0--3--5--5--5--3--12--10--
A|--0--0--0--0--0--3--5--5--5--3--12--10--
E|--0--0--0--0--0--3--5--5--5--3--12--10--



E|--
B|--
G|--
D|--
A|--
E|--



E|----------
B|----------
G|--12--12--
D|----------
A|----------
E|----------



E|----------------------
B|----------------------
G|----------------------
D|--8--5--0-------------
A|--8--5--0-------------
E|--8--5--0--0--0p3--0--



E|---------------------------------------------------------
B|---------------------------------------------------------
G|---------------------------------------------------------
D|--8--5--0------------------------------------8--5--5--8--
A|--8--5--0------------------------------------8--5--5--8--
E|--8--5--0--0--0--3p0--0--3p0--0--3--3--0--0--8--5--5--8--



E|--13--
B|------
G|------
D|------
A|------
E|------



E|--13p10--8h10--
B|---------------
G|---------------
D|---------------
A|---------------
E|---------------
http://www.guitartabcreator.com
Guitar Tab Creator is intended to store guitar tab created through the tool. It currently does not support in-line text editing. Any text you place in here will be lost. If you need to comment on your tab, please use the "Tab Notes" section located below.