For Thomas

(/) Slide Up  (\) Slide Down  (h) Hammer On  (p) Pull Off  (b) Bend (r) Release (v) Vibrato


Intro (play twice)

E|--------------------------------------------------
B|--------------------------------------------------
G|--------------------------------0-----------------
D|--------9-----------0--------------0-----5-----4--
A|-----7-----7-----9-----9-----5--------3-----2-----
E|--0-----------7-----------3-----------------------


Verse

E|----------------------------------------------
B|--------0h2-----------------------------------
G|-----4-------------------------0--2--0--------
D|--2----------4--0-----2--2--4-----------4--0--
A|-------------------2--------------------------
E|----------------------------------------------



E|----------------------------
B|----------------------------
G|--------4--0h2--------------
D|-----2----------4-----0-----
A|--2----------------2--------
E|----------------------------


Bridge

E|---------------------------------------------
B|------------------------12--12--10--8--7-----
G|-----2--2--7--7--9--12-----------------------
D|--0------------------------------------------
A|---------------------------------------------
E|---------------------------------------------


Corus

E|--10--12--12--12--12--14--12--10--7--9--5--7--
B|----------------------------------------------
G|----------------------------------------------
D|----------------------------------------------
A|----------------------------------------------
E|----------------------------------------------



E|--12--12--12--12--14--12--10--7--9--2--------
B|---------------------------------------------
G|---------------------------------------------
D|---------------------------------------2-----
A|---------------------------------------------
E|--------------------------------------------- leads back into verse
Guitar Tab Creator is intended to store guitar tab created through the tool. It currently does not support in-line text editing. Any text you place in here will be lost. If you need to comment on your tab, please use the "Tab Notes" section located below.