No Way Out - Tom Carr

(/) Slide Up  (\) Slide Down  (h) Hammer On  (p) Pull Off  (b) Bend (r) Release (v) Vibrato

Intro

E|--------3----------|
B|--------0---0-1-1-0|
G|-----------0---0-0-|
D|-----0h2--0--------|
A|--0h2--------------|
E|--------3----------|

Main Riff

E|-----------------------------------------------------------------------------------
B|---0---0---0-1---1---1-0---0---0-1---1---1-0---0---0-1---1---1-0---0---0-1---1---1-
G|-----0---0-----0---0-----0---0-----0---0-----0---0-----0---0-----0---0-----0---0---
D|--0-0-0-0-0-0-0-0-0-0-0-0-0-0-0-0-0-0-0-----2-2-2-2-2-2-2-2-2----------------------
A|----------------------------------------------------------------3-3-3-3-3-3-3-3-3--
E|-----------------------------------------------------------------------------------

E|-----------------------------------------------------------------------------------
B|--0---0---0-1---1---1-0---0---0-1---1---1-0---0---0-1---1---1-0---0---0-1---1---1--
G|----2---2-----2---2-----0---0-----0---0-----0---0-----0---0-----0---0-----0---0----
D|-0-0-0-0-0-0-0-0-0-------------------------2-2-2-2-2-2-2-2-2-----------------------
A|---------------------------------------------------------------3-3-3-3-3-3-3-3-3---
E|-----------------------3-3-3-3-3-3-3-3-3-------------------------------------------

E|-----------------------------------------------------|
B|---0---0---0-1---1---1-0---0---0-1---1---1-0---0---0-|
G|-----2---2-----2---2-----0---0-----0---0-----0---0---|
D|--0-0-0-0-0-0-0-0-0----------------------------------|
A|-----------------------------------------------------|
E|------------------------3-3-3-3-3-3-3-3-3-3-3-3-3----|

Outro

E|-----------|
B|-----------|
G|-----------| x4
D|-2-----0---|
A|---3-------|
E|-----3-----|
Guitar Tab Creator is intended to store guitar tab created through the tool. It currently does not support in-line text editing. Any text you place in here will be lost. If you need to comment on your tab, please use the "Tab Notes" section located below.