Bluesy riff

(/) Slide Up  (\) Slide Down  (h) Hammer On  (p) Pull Off  (b) Bend (r) Release (v) Vibrato


E|------------------------------------------------------------------------------------------
B|------------------------------------------------------------------------------------------
G|------------------------------------------------------------------------------------------
D|-------------------8--9--10----10--9--8---------------------------------------------------
A|---------8--9--10------------------------10--10--9--8----6--8p6--8/9\8p6--8p6-----6v--\0--
E|--8--11------------------------------------------------------------------------8----------



E|-------------------------------------------------------------------------------------------------
B|-------------------------------------------------------------------------------------------------
G|-------------------------------------------------------------------------------------------------
D|-------------------8--9--10----10--9--8------8-------------------------------------------8v--\0--
A|---------8--9--10------------------------10-----9--8------6--8p6--8/9\8p6--8p6--8h9p8p6----------
E|--8--11------------------------------------------------------------------------------------------
http://www.guitartabcreator.com
Guitar Tab Creator is intended to store guitar tab created through the tool. It currently does not support in-line text editing. Any text you place in here will be lost. If you need to comment on your tab, please use the "Tab Notes" section located below.