Slow Burn

(/) Slide Up  (\) Slide Down  (h) Hammer On  (p) Pull Off  (b) Bend (r) Release (v) Vibrato
E|-------------------------------------------------------------
B|-------------------------------------------------------------
G|-19-------19-------19-------19-------17-------17-------15-14-
D|----17-17----17-17----15-15----15-15----14-14----14-14-------
A|-------------------------------------------------------------
E|-------------------------------------------------------------



E|--------------------------------------------------------------------------------------
B|--------------------------------------------------------------------------------------
G|--19----------19----------19----------19----------17----------17----------15--14--12--
D|------17--17------17--17------15--15------15--15------14--14------14--14--------------
A|--------------------------------------------------------------------------------------
E|--------------------------------------------------------------------------------------
http://www.guitartabcreator.com
Guitar Tab Creator is intended to store guitar tab created through the tool. It currently does not support in-line text editing. Any text you place in here will be lost. If you need to comment on your tab, please use the "Tab Notes" section located below.