Part Two in Apollo 13

(/) Slide Up  (\) Slide Down  (h) Hammer On  (p) Pull Off  (b) Bend (r) Release (v) Vibrato


E|----------------------------------------------------
B|----------------------------------------------------
G|----------------------------------------------------
D|----------------------------------------------------
A|----------------------------------------------------
E|--0--0--0--0--17--17--17--17/15--15--15--15/14--14--



E|-----
B|-----
G|-----
D|--0--
A|--0--
E|--0--



E|---------------------------------------------------------------------
B|---------------------------------------------------------------------
G|---------------------------------------------------------------------
D|--12----x--x--x--12----x--x--x--12----x--x--x--12h14--12--12h15--12--
A|--12----x--x--x--12----x--x--x--12----x--x--x--12-14--12--12-15--12--
E|--12----x--x--x--12----x--x--x--12----x--x--x--12-14--12--12-15--12--



E|----------------------------------------------------------------
B|----------------------------------------------------------------
G|----------------------------------------------------------------
D|--10----x--x--x--10----x--x--x--10----x--x--x--7----x--x--x--7--
A|--10----x--x--x--10----x--x--x--10----x--x--x--7----x--x--x--7--
E|--10----x--x--x--10----x--x--x--10----x--x--x--7----x--x--x--7--
http://www.guitartabcreator.com
Guitar Tab Creator is intended to store guitar tab created through the tool. It currently does not support in-line text editing. Any text you place in here will be lost. If you need to comment on your tab, please use the "Tab Notes" section located below.