Lakes

(/) Slide Up  (\) Slide Down  (h) Hammer On  (p) Pull Off  (b) Bend (r) Release (v) Vibrato

E|--2--2--5--5--7--7--5--5--
B|--3--3--6--6--8--8--6--6--
G|--2--2--5--5--7--7--5--5--
D|--0--0--0--0--0--0--0--0--
A|--------------------------
E|--------------------------



E|--2--2--2--2--
B|--3--3--3--3--
G|--2--2--2--0--
D|--0--2--2--2--
A|--------3--3--
E|--------------
http://www.guitartabcreator.com
Guitar Tab Creator is intended to store guitar tab created through the tool. It currently does not support in-line text editing. Any text you place in here will be lost. If you need to comment on your tab, please use the "Tab Notes" section located below.