LESSON 2 HOME PRACTICE, 3 CHORDS & MORE!

(/) Slide Up  (\) Slide Down  (h) Hammer On  (p) Pull Off  (b) Bend (r) Release (v) Vibrato


E|--(/) Slide Up (\) Slide Down (h) Hammer On (p) Pull Off (b) Bend (r) Release (v) Vibrato

Repetition is the key to learning the guitar!!!

Place fingers in the position shown at the end of each row then
begin this exercise on each chord!


E minor arpeggio then strum chord to finish
E|--------------------0--0-----------------------------------0--0--------------------0--
B|-----------------0--------0-----------------------------0--------0-----------------0--
G|--------------0--------------0-----------------------0--------------0--------------0--
D|-----------2--------------------2-----------------2--------------------2-----------2--
A|--------2--------------------------2-----------2--------------------------2--------2--
E|--0--3--------------------------------3--0--3--------------------------------3--0--0--


C Major arpeggio then strum chord to finish
E|--------------0--3--3--0--------------------------0--3--3--0--------------0--
B|-----------1--------------1--------------------1--------------1-----------1--
G|--------0--------------------0--------------0--------------------0--------0--
D|-----2--------------------------2--------2--------------------------2-----2--
A|--3--------------------------------3--3--------------------------------3--3--
E|-----------------------------------------------------------------------------


D Major arpeggio then strum chord to finish
E|--------------------------------------2--
B|-----------3--3--------------------3--3--
G|--------2--------2--------------2-----2--
D|--0--4--------------4--0--0--4--------0--
A|-----------------------------------------
E|-----------------------------------------


This is an exercise in rhythm, now we have got our chords sounding clean and crisp,
we now strum each chord 4 times strumming down only.
Repeat this until you are happy with your achievement or your fingers bleed.

Em C D Em
E|----0----0----0----0----0----0----0----0----2----2----2----2----0----0----0----0----
B|----0----0----0----0----1----1----1----1----3----3----3----3----0----0----0----0----
G|----0----0----0----0----0----0----0----0----2----2----2----2----0----0----0----0----
D|----2----2----2----2----2----2----2----2----0----0----0----0----2----2----2----2----
A|----2----2----2----2----3----3----3----3----0----0----0----0----2----2----2----2----
E|----0----0----0----0----0----0----0----0----0----0----0----0----0----0----0----0----



Guitar Tab Creator is intended to store guitar tab created through the tool. It currently does not support in-line text editing. Any text you place in here will be lost. If you need to comment on your tab, please use the "Tab Notes" section located below.