LESSON 1 HOME PRACTISE !!! GOOD LUCK

(/) Slide Up  (\) Slide Down  (h) Hammer On  (p) Pull Off  (b) Bend (r) Release (v) Vib

G MAJOR SCALE, PATTERN USES 4 FRETS
ON GUITAR THIS PATTERN CAN BE USED
ALL THE WAY UP THE FRET BOARD OF THE GUITAR.
E|-----------------------------
B|-----------------------------
G|-----------------------------
D|-----------------2--4--5-----
A|--------2--3--5--------------
E|--3--5-----------------------



HAPPY BIRTHDAY SONG, PRACTISE.
E|---------------------------------------------------
B|---------------------------------------------------
G|---------------------------------------------------
D|-----------------------------5-2-------3-3-2-------
A|---------3-2---------5-3---------3-2---------3-5-3-
E|-3-3-5-3-----3-3-5-3-----3-3---------5-------------



ODE TO JOY, PRACTISE.
E|-----------------------------------------------
B|--0--0--1--3--3--1--0--------------0--0--------
G|-----------------------2--0--0--2--------2--2--
D|-----------------------------------------------
A|-----------------------------------------------
E|-----------------------------------------------



E|-----------------------------------------------
B|--0--0--1--3--3--1--0--------------0-----------
G|-----------------------2--0--0--2-----2--0--0--
D|-----------------------------------------------
A|-----------------------------------------------
E|-----------------------------------------------



E|--------------------------------------------------
B|-----0--------0--1--0--------0--1--0--------------
G|--2-----0--2-----------0--2-----------2--0--2-----
D|-----------------------------------------------4--
A|--------------------------------------------------
E|--------------------------------------------------



E|--------------------------------------------------
B|--0--0--1--3--3--1--0--------------1--0-----------
G|-----------------------2--0--0--2--------2--0--0--
D|--------------------------------------------------
A|--------------------------------------------------
E|--------------------------------------------------
http://www.guitartabcreator.com
Guitar Tab Creator is intended to store guitar tab created through the tool. It currently does not support in-line text editing. Any text you place in here will be lost. If you need to comment on your tab, please use the "Tab Notes" section located below.