El Porompompero

(/) Slide Up  (\) Slide Down  (h) Hammer On  (p) Pull Off  (b) Bend (r) Release (v) Vibrato

E|--0--5--7--8--7--5-----0--3--5--5/7--5--3--5--3--0--1--3--3/5--3--1--1-----1--3--1-----
B|--------------------1------------------------------------------------1--1--------------
G|--------------------2------------------------------------------------2--------------1--
D|--------------------2------------------------------------------------3--------------2--
A|----------------------------------------------2----------------------3--------------2--
E|----------------------------------------------3----------------------------------------



E|-----------0--------------------0-----------3-----0--1--3--1--1--1--3--1--0--------------------
B|-----0--1-----3--1--1-----0--1-----3--1--0-----3--------------1--------------3--1--0-----0-----
G|--2-----------------2--2--------------------------------------2-----------------------2--------
D|--------------------2-----------------------------------------3--------------------------------
A|--------------------------------------------2--------------------------------------------------
E|--------------------------------------------3--------------------------------------------------



E|--------------1--3--1--0-----------------------------
B|--1-----------------------3--1--0-----0--1-----------
G|-----2--1--1-----------------------2--------2--1--1--
D|-----------2--------------------------------------2--
A|-----------2--------------------------------------2--
E|-----------------------------------------------------
http://www.guitartabcreator.com
Guitar Tab Creator is intended to store guitar tab created through the tool. It currently does not support in-line text editing. Any text you place in here will be lost. If you need to comment on your tab, please use the "Tab Notes" section located below.