Blue Moon B part

(/) Slide Up  (\) Slide Down  (h) Hammer On  (p) Pull Off  (b) Bend (r) Release (v) Vibrato

E|-----------------------------------------------------------------------------------------
B|--0--1--2--3--3--3--3--5--5-----1--1--------1-----3--3--3--3--5--5-----1--1--------1-----
G|-----------2--2--3--3--4--4-----2--2--------2-----2--2--3--3--4--4-----2--2--------2-----
D|-----------------------------------------------------------------------------------------
A|--------------------------------3-----2--0-----------------------------3-----2--0--------
E|-----------1-----2-----3-----3-----------------3--1-----2-----3-----3-----------------3--



E|----------------------------------------------------------------0-----------------------------
B|--1--1--1--1--3--3-----4--4--------4--------------3-----3/8--6--------0--------0--------------
G|--1--1--1--1--3--3-----3--3--------3-----4-----4--2--2-------------7-----7--5--------0--------
D|-----------------------1-----0--------------5-------------------------------------5-----0--2--
A|--------3-----1-----1-----------3-----1-------------------------------------------------------
E|--1--------------------------------------3--------2-------------------------------------------
http://www.guitartabcreator.com
Guitar Tab Creator is intended to store guitar tab created through the tool. It currently does not support in-line text editing. Any text you place in here will be lost. If you need to comment on your tab, please use the "Tab Notes" section located below.