rieng mot goc troi

(/) Slide Up  (\) Slide Down  (h) Hammer On  (p) Pull Off  (b) Bend (r) Release (v) Vibrato


E|--0--5--7--8--8--7--5--0--------1--0----0--5--7--8--8--7--5--0--------0----------1--5--7--7-----
B|--------------------------1-------------------------------------1--------3----3-----------------
G|-----------------------------2-------------------------------------2----------------------------
D|------------------------------------------------------------------------------------------------
A|------------------------------------------------------------------------------------------------
E|------------------------------------------------------------------------------------------------



E|--0--5--7--8--
B|--------------
G|--------------
D|--------------
A|--------------
E|--------------
http://www.guitartabcreator.com
Guitar Tab Creator is intended to store guitar tab created through the tool. It currently does not support in-line text editing. Any text you place in here will be lost. If you need to comment on your tab, please use the "Tab Notes" section located below.