Lollipop- Lil Wayne (Capo 5)

(/) Slide Up  (\) Slide Down  (h) Hammer On  (p) Pull Off  (b) Bend (r) Release (v) Vibrato
E|--10--10--10--10--12--12--12--12--13--13--13--13/15--15--15--15--
B|-----------------------------------------------------------------
G|-----------------------------------------------------------------
D|-----------------------------------------------------------------
A|-----------------------------------------------------------------
E|-----------------------------------------------------------------



E|--10--10--10--10--12--12--12--12--13--13--13--13/17--17--17--17--
B|-----------------------------------------------------------------
G|-----------------------------------------------------------------
D|-----------------------------------------------------------------
A|-----------------------------------------------------------------
E|-----------------------------------------------------------------



E|--10--10--10--10--12--12--12--12--13--13--13--13/15--15--15--15--
B|-----------------------------------------------------------------
G|-----------------------------------------------------------------
D|-----------------------------------------------------------------
A|-----------------------------------------------------------------
E|-----------------------------------------------------------------



E|--10--10--10--10--12-------------------
B|--------------------b10--8/6--8/10-----
G|------------------------------------7--
D|---------------------------------------
A|---------------------------------------
E|---------------------------------------



E|------------5-------------------------------5---------------------
B|--8/10/8/6--6---------------------8/10/8/6--6---------------------
G|------------7--7--9--10--7h9p7p5------------5--7--9--10--7h9p7p5--
D|------------7-------------------------------7---------------------
A|------------5-------------------------------8---------------------
E|------------5-----------------------------------------------------



E|------------5-------------------------5-------------------------------5-----
B|--8/10/8/6--6--8/10/8/6--8--8/10/8/6--6---------------------8/10/8/6--6-----
G|------------5------------5------------7--7--9--10--7h9p7p5------------7-----
D|------------5------------5------------7-------------------------------7-----
A|------------7------------5------------5-------------------------------5-----
E|------------8------------8--------------------------------------------------



E|-------------------------------5-------------------------------5---------------
B|---------------------8/10/8/6--6---------------------8/10/8/6--6--8/10/8/6--8--
G|--7--9--10--7h9p7p5------------5--7--9--10--7h9p7p5------------5------------5--
D|-------------------------------7-------------------------------5------------5--
A|-------------------------------8-------------------------------7------------5--
E|---------------------------------------------------------------8------------8--



E|------------5---------------------
B|--8/10/8/6--6---------------------
G|------------7--7--9--10--7h9p7p5--
D|------------7---------------------
A|------------5---------------------
E|----------------------------------
http://www.guitartabcreator.com
Guitar Tab Creator is intended to store guitar tab created through the tool. It currently does not support in-line text editing. Any text you place in here will be lost. If you need to comment on your tab, please use the "Tab Notes" section located below.