"Hardened" by J. Smith

(/) Slide Up  (\) Slide Down  (h) Hammer On  (p) Pull Off  (b) Bend (r) Release (v) Vibrato

E|---------------------------------------------------------------------
B|---------------------------------------------------------------------
G|---------------------------------------------------------------------
D|--10--12--12--2--2--5----10--12--12--2--2--6----10--12--12--2--2--5--
A|--10--12--12--2--2--5----10--12--12--2--2--6----10--12--12--2--2--5--
E|--8---10--10--0--0--3----8---10--10--0--0--4----8---10--10--0--0--3--



E|------------------------------
B|------------------------------
G|------------------------------
D|--10--12--12--12--12--12--12--
A|--10--12--12--12--12--12--12--
E|--8---10--10--10--10--10--10--



E|--------------------------------------------------------------------
B|--------------------------------------------------------------------
G|--------------------------------------------------------------------
D|--2--5--7--7--5--7--5--7--7--8--2--2--5--7--7--5--7--5--4--4--4--4--
A|--2--5--7--7--5--7--5--7--7--8--2--2--5--7--7--5--7--5--4--4--4--4--
E|--0--3--5--5--3--5--3--5--5--6--0--0--3--5--5--3--5--3--2--2--2--2--



E|-------------------------------------------------------
B|-------------------------------------------------------
G|-------------------------------------------------------
D|--2--5--7--7--5--7--5--7--7--8--2--2--5--7--7--10--12--
A|--2--5--7--7--5--7--5--7--7--8--2--2--5--7--7--10--12--
E|--0--3--5--5--3--5--3--5--5--6--0--0--3--5--5--8---10--



E|---------------------------------------
B|---------------------------------------
G|---------------------------------------
D|----2----7----2----2----9----5----7----
A|----2----7----2----2----9----5----7----
E|----0----5----0----0----7----3----5----
http://www.guitartabcreator.com
Guitar Tab Creator is intended to store guitar tab created through the tool. It currently does not support in-line text editing. Any text you place in here will be lost. If you need to comment on your tab, please use the "Tab Notes" section located below.