Song for the Unholy (I'm Sexy and I Know It)

(/) Slide Up  (\) Slide Down  (h) Hammer On  (p) Pull Off  (b) Bend (r) Release (v) Vibrato


E|--x--------x--------x--
B|--x--------x--------x--
G|--x--------4--------6--
D|--2--------3--------5--
A|--2--------5--------7--
E|--0--------3--------5--



E|--x----------------x----x--
B|--x----------------x----x--
G|--x----------------4----6--
D|--2----------------3----5--
A|--2----------------5----7--
E|--0--3p0--3p0------3----5--



E|--x----------------x----x----x--
B|--x----------------x----x----x--
G|--x----------------4----6----8--
D|--2----------------3----5----7--
A|--2----------------5----7----9--
E|--0--3p0--3p0------3----5----7--
http://www.guitartabcreator.com
Guitar Tab Creator is intended to store guitar tab created through the tool. It currently does not support in-line text editing. Any text you place in here will be lost. If you need to comment on your tab, please use the "Tab Notes" section located below.