Hosanna

(/) Slide Up  (\) Slide Down  (h) Hammer On  (p) Pull Off  (b) Bend (r) Release (v) Vibrato
E|-----------4-------------------4-----------------------------------------------------------
B|-------5-----------------5h7---------------------4-------------------4-----------------5---
G|---6-----------------6-----------------------4-----------------4h6-----------------6-------
D|-----------------------------------------6-----------------6-------------------7-----------
A|-------------------------------------------------------------------------------------------
E|-------------------------------------------------------------------------------------------



E|---------------------------------------
B|-----5---------------4--------------4--
G|--------6---------4------------4h6-----
D|--7------------6------------6----------
A|---------------------------------------
E|---------------------------------------



E|--------4----------4------------------------------------------7------------------9-----
B|-----5--------5h7---------------4----------4------------5------------------7-----------
G|--6--------6-----------------4--------4h6------------6------------------8--------------
D|--------------------------6--------6--------------7--------7---------9--------9--------
A|---------------------------------------------------------------------------------------
E|---------------------------------------------------------------------------------------



E|--x----x----x----x--
B|--x----x----x----x--
G|--9----6----2----4--
D|--9----6----2----4--
A|--7----4----x----2--
E|--x----x----x----x--
http://www.guitartabcreator.com
Guitar Tab Creator is intended to store guitar tab created through the tool. It currently does not support in-line text editing. Any text you place in here will be lost. If you need to comment on your tab, please use the "Tab Notes" section located below.