Savior's Star solo

(/) Slide Up  (\) Slide Down  (h) Hammer On  (p) Pull Off  (b) Bend (r) Release (v) Vibrato


E|-------------------------------------------------------------
B|-------------------------------------------------------------
G|--9/12--14p15--12--------------14p15--12--------------14p15--
D|-------------------14--12--14-------------14--12--14---------
A|-------------------------------------------------------------
E|-------------------------------------------------------------



E|----------------------12--15--12--15--12--15--12--15--12--15--12--15--12--15--12--15--
B|--------------------------------------------------------------------------------------
G|----------12--12--14------------------------------------------------------------------
D|--12--14------------------------------------------------------------------------------
A|--------------------------------------------------------------------------------------
E|--------------------------------------------------------------------------------------



E|--17--17--15--17--15--12--15--12--15--12--15--12--15--
B|------------------------------------------------------
G|------------------------------------------------------
D|------------------------------------------------------
A|------------------------------------------------------
E|------------------------------------------------------



E|-----------------------------------------------------------
B|-----------------------------------------------------------
G|--14p15--12--------------14p15--12--------------14p15--12--
D|-------------14--12--14-------------14--12--14-------------
A|-----------------------------------------------------------
E|-----------------------------------------------------------
http://www.guitartabcreator.com
Guitar Tab Creator is intended to store guitar tab created through the tool. It currently does not support in-line text editing. Any text you place in here will be lost. If you need to comment on your tab, please use the "Tab Notes" section located below.