Light in the fog

(/) Slide Up  (\) Slide Down  (h) Hammer On  (p) Pull Off  (b) Bend (r) Release (v) Vibrato


E|--0--------------3--------------0--------------2--------------
B|--1--------------0--------------0--------------2--------------
G|--2--------------0--------------0--------------3--------------
D|--2--2--0--------0--------------2--------------4--4--2--------
A|--0--------2--0--2--2--0--------2-----------2--4--------4--2--
E|-----------------3--------3--2--0--0--2--3-----2--------------



E|--2--------3--2p0--0-----------------3-------------------2--2--2--2--2--
B|--3--3-------------1-----------------0-------------------2--2--2--2--2--
G|--2-----2----------2--2--------------0-------------------3--3--3--3--3--
D|--0----------------2-----2-----------0-------------------4--4--4--4--4--
A|-------------------0--------3--2-----2-------------------4--4--4--4--4--
E|----------------------------------3--3--3--2--0--2--2h3--2--2--2--2--2--


I will be your light
In the fog for ever
And I will be there
http://www.guitartabcreator.com
Guitar Tab Creator is intended to store guitar tab created through the tool. It currently does not support in-line text editing. Any text you place in here will be lost. If you need to comment on your tab, please use the "Tab Notes" section located below.