Followers of inhumanity

(/) Slide Up  (\) Slide Down  (h) Hammer On  (p) Pull Off  (b) Bend (r) Release (v) Vibrato


E|------------
B|------------
G|------------
D|------------
A|--12--7--5--
E|------------



E|--------------------------------------------------------------------------------------------------
B|--------------------------------------------------------------------------------------------------
G|--------------------------------------------------------------------------------------------------
D|--------------------------------------------------------------------------------------------------
A|--7--7--7--7--7--7--7--7--3--3--3--3--3--3--3--3--5--5--5--5--5--5--5--5--3--3--3--3--------------
E|--------------------------------------------------------------------------------------3--3--3--3--



E|--------------------------------------------------------------------------------------------------
B|--------------------------------------------------------------------------------------------------
G|--------------------------------------------------------------------------7--7--7--7--7--7--7--7--
D|--------------------------------------------------------------------------7--7--7--7--7--7--7--7--
A|--7--7--7--7--7--7--7--7--3--3--3--3--3--3--3--3--5--5--5--5--5--5--5--5--5--5--5--5--5--5--5--5--
E|--------------------------------------------------------------------------------------------------



E|---------------------------------------------------
B|---------------------------------------------------
G|--9--9--9--9--5--5--5--5--7--7--7--7------------7--
D|--9--9--9--9--5--5--5--5--7--7--7--7------------7--
A|--7--7--7--7--3--3--3--3--5--5--5--5--12--7--5--5--
E|---------------------------------------------------


E|--------------------------------------------------
B|--------------------------------------------------
G|--9--9--9--9--5--5--5--5--7--7--7--7--5--5--5--5--
D|--9--9--9--9--5--5--5--5--7--7--7--7--5--5--5--5--
A|--7--7--7--7--3--3--3--3--5--5--5--5--3--3--3--3--
E|--------------------------------------------------


E|---------------------------------------------------
B|---------------------------------------------------
G|--9--9--9--9--5--5--5--5--7--7--7--7------------7--
D|--9--9--9--9--5--5--5--5--7--7--7--7------------7--
A|--7--7--7--7--3--3--3--3--5--5--5--5--12--7--5--5--
E|---------------------------------------------------

E|-----------------------------------------------------------
B|-----------------------------------------------------------
G|--------9--9--9--------5--5--5--------7--7--7--------------
D|--------9--9--9--------5--5--5--------7--7--7--------------
A|--7--7--7--7--7--3--3--3--3--3--5--5--5--5--5--3--3--------
E|-----------------------------------------------------3--3--

E|-------------------------------------------------------------
B|-------------------------------------------------------------
G|--------9--9--9--------5--5--5--------7--7--7----7--7--7--7--
D|--------9--9--9--------5--5--5--------7--7--7----7--7--7--7--
A|--7--7--7--7--7--3--3--3--3--3--5--5--5--5--5----5--5--5--5--
E|-------------------------------------------------------------


E|--------------------------------------------------
B|--------------------------------------------------
G|--9--9--9--9--5--5--5--5-----------7--7--7--7--7--
D|--9--9--9--9--5--5--5--5--5--5--5--7--7--7--7--7--
A|--7--7--7--7--3--3--3--3--5--5--5--5--5--5--5--5--
E|--------------------------3--3--3-----------------


E|------------------------------------
B|------------------------------------
G|--9--9--9--9--5--5--5--5---------7--
D|--9--9--9--9--5--5--5--5----5----7--
A|--7--7--7--7--3--3--3--3----5----5--
E|----------------------------3-------

http://www.guitartabcreator.com
Guitar Tab Creator is intended to store guitar tab created through the tool. It currently does not support in-line text editing. Any text you place in here will be lost. If you need to comment on your tab, please use the "Tab Notes" section located below.