Cold End Solo

(/) Slide Up  (\) Slide Down  (h) Hammer On  (p) Pull Off  (b) Bend (r) Release (v) Vibrato


E|----------------------------------------------------------------------
B|----------15--------------15--------------15--------------------------
G|--14--17------17--14--17------17--14--17------17--14--17--14--12--14--
D|----------------------------------------------------------------------
A|----------------------------------------------------------------------
E|----------------------------------------------------------------------



E|--------------------------------------------------------------------------
B|--------------15--18--15------15--18--15------15--18--15------15--18--20--
G|--12--14--17--------------17--------------17--------------17--------------
D|--------------------------------------------------------------------------
A|--------------------------------------------------------------------------
E|--------------------------------------------------------------------------



E|-------------------------17--15----------15--13--12--
B|--20--18--20b21--18--15----------15--15--------------
G|-----------------------------------------------------
D|-----------------------------------------------------
A|-----------------------------------------------------
E|-----------------------------------------------------



E|--13p12--13p12--13p12-----------------------------15------
B|-----------------------15--18--20b21--18--15--18------15--
G|----------------------------------------------------------
D|----------------------------------------------------------
A|----------------------------------------------------------
E|----------------------------------------------------------
http://www.guitartabcreator.com
Guitar Tab Creator is intended to store guitar tab created through the tool. It currently does not support in-line text editing. Any text you place in here will be lost. If you need to comment on your tab, please use the "Tab Notes" section located below.