Cold End

(/) Slide Up  (\) Slide Down  (h) Hammer On  (p) Pull Off  (b) Bend (r) Release (v) Vibrato
E|--------------------------------------------------------------
B|-----------0--------------3--------------5--------------7-----
G|-----2--------2-----5--------5-----7--------7-----9--------9--
D|--------2--------------5--------------7--------------9--------
A|--0--------------3--------------5--------------7--------------
E|--------------------------------------------------------------



E|----------------------------------
B|----------------------------------
G|--2--2----5--5------7--7----7--7--
D|--2--2----5--5------7--7----7--7--
A|--0--0----3--3------5--5----5--5--
E|----------------------------------



E|--------------------------------------------------------------
B|-----------0--------------3-----------------------------5-----
G|-----2--------2-----5--------5-----------3--------7--------7--
D|--------2--------------5-----------5--------5--------7--------
A|--0--------------3--------------------5--------5--------------
E|--------------------------------3-----------------------------
http://www.guitartabcreator.com
Guitar Tab Creator is intended to store guitar tab created through the tool. It currently does not support in-line text editing. Any text you place in here will be lost. If you need to comment on your tab, please use the "Tab Notes" section located below.