Burning Cold

(/) Slide Up  (\) Slide Down  (h) Hammer On  (p) Pull Off  (b) Bend (r) Release (v) Vibrato

Intro

E|-----------------------------------------------------------------------------
B|-----------------------------------------------------------------------------
G|-----------------------------------------------------------------------------
D|--9----9--7--9----7----7----9--7--9----7----5----9--7--9----7----5--7--5--7--
A|--9--------------------7--------------------5--------------------5--7--5--7--
E|--7--------------------5--------------------3--------------------3--5--3--5--



E|--------------------------------------------------------------------------
B|--------------------------------------------------------------------------
G|-----9-----------7-------9-----------7-------9-----------7----------------
D|--9-----9--7--9-------7-----9--7--9-------5-----9--7--9-------5--7--5--7--
A|--9-------------------7-------------------5-------------------5--7--5--7--
E|--7-------------------5-------------------3-------------------3--5--3--5--

Verse x4

E|--------------------------------------------------------------------
B|--------------------------------------------------------------------
G|--------------------------------------------------------------------
D|--9----9----9--9----7----7----7--7----5----5----5--5----5--7--5--7--
A|--9----9----9--9----7----7----7--7----5----5----5--5----5--7--5--7--
E|--7----7----7--7----5----5----5--5----3----3----3--3----3--5--3--5--

Chorus x2

E|-----------------------------------------
B|-----------------------------------------
G|-----------------------------------------
D|--9--------7--------5--------5--7--5--7--
A|--9--------7--------5--------5--7--5--7--
E|--7--------5--------3--------3--5--3--5--

Guitar Chorus x2

E|-----------------------------------------------------------------------------------
B|-----------------------------------------------------------------------------------
G|-----9-----------7--------------9-----------7--------------9-----------7-----------
D|--9-----9--7--9-----9--7--9--7-----9--7--9-----9--7--9--5-----9--7--9-----9--7--9--
A|--9--------------------------7--------------------------5--------------------------
E|--7--------------------------5--------------------------3--------------------------



E|-----------------------------
B|-----------------------------
G|-----9-----------7-----------
D|--3-----9--7--9-----9--7--9--
A|--3--------------------------
E|--1--------------------------

Pre-Verse

E|-----------------------------------------------------------------------------
B|-----------------------------------------------------------------------------
G|-----------------------------------------------------------------------------
D|--9----9--7--9----7----7----9--7--9----7----5----9--7--9----7----5--7--5--7--
A|--9--------------------7--------------------5--------------------5--7--5--7--
E|--7--------------------5--------------------3--------------------3--5--3--5--



E|--------------------------------------------------------------------------
B|--------------------------------------------------------------------------
G|-----9-----------7-------9-----------7-------9-----------7----------------
D|--9-----9--7--9-------7-----9--7--9-------5-----9--7--9-------5--7--5--7--
A|--9-------------------7-------------------5-------------------5--7--5--7--
E|--7-------------------5-------------------3-------------------3--5--3--5--

Verse x4

E|--------------------------------------------------------------------
B|--------------------------------------------------------------------
G|--------------------------------------------------------------------
D|--9----9----9--9----7----7----7--7----5----5----5--5----5--7--5--7--
A|--9----9----9--9----7----7----7--7----5----5----5--5----5--7--5--7--
E|--7----7----7--7----5----5----5--5----3----3----3--3----3--5--3--5--

Chorus x2

E|-----------------------------------------
B|-----------------------------------------
G|-----------------------------------------
D|--9--------7--------5--------5--7--5--7--
A|--9--------7--------5--------5--7--5--7--
E|--7--------5--------3--------3--5--3--5--

Guitar Chorus x2

E|-----------------------------------------------------------------------------------
B|-----------------------------------------------------------------------------------
G|-----9-----------7--------------9-----------7--------------9-----------7-----------
D|--9-----9--7--9-----9--7--9--7-----9--7--9-----9--7--9--5-----9--7--9-----9--7--9--
A|--9--------------------------7--------------------------5--------------------------
E|--7--------------------------5--------------------------3--------------------------



E|-----------------------------
B|-----------------------------
G|-----9-----------7-----------
D|--3-----9--7--9-----9--7--9--
A|--3--------------------------
E|--1--------------------------

Outro

E|-----------------------------------------------------------------------------------
B|-----------------------------------------------------------------------------------
G|-----9-----------7--------------9-----------7--------------9-----------7-----------
D|--9-----9--7--9-----9--7--9--7-----9--7--9-----9--7--9--5-----9--7--9-----9--7--9--
A|--9--------------------------7--------------------------5--------------------------
E|--7--------------------------5--------------------------3--------------------------

E|--------------------------2-
B|--------------------------3-
G|------9-------------------2-
D|--3-------9---7---5---3---0-
A|--3-------------------------
E|--1-------------------------
http://www.guitartabcreator.com
Guitar Tab Creator is intended to store guitar tab created through the tool. It currently does not support in-line text editing. Any text you place in here will be lost. If you need to comment on your tab, please use the "Tab Notes" section located below.