From the bottom of our souls

(/) Slide Up  (\) Slide Down  (h) Hammer On  (p) Pull Off  (b) Bend (r) Release (v) Vibrato


E|--------------------------------------------------------------------------
B|--------------------------------------------------------------------------
G|-----------2-----------------2-----------------2-----------------2--------
D|-----2--3-----3--2-----2--3-----3--2-----2--3-----3--2-----2--3-----3--2--
A|--0-----------------0-----------------0-----------------0-----------------
E|--------------------------------------------------------------------------



E|-----------------------------------------------------------------
B|-----------------------------------------------------------------
G|-----------2-----------------2-----------------2-----------------
D|-----2--3-----3--2-----2--3-----3--2-----2--3-----3--2-----------
A|--0-----------------0-----------------0-----------------3--2--0--
E|--------------------------------------------------------3--2--0--



E|-----------------------------------------
B|-----------------------------------------
G|-----------------------------------------
D|-----------------------------------------
A|-----------------------------------------
E|--0--0--0--0--0--0--0--0--3--5--7--5--3--



E|------------------------------
B|------------------------------
G|------------------------------
D|------------------------------
A|--3----2----0-----------------
E|--3----2----0--3--5--7--5--3--
http://www.guitartabcreator.com
Guitar Tab Creator is intended to store guitar tab created through the tool. It currently does not support in-line text editing. Any text you place in here will be lost. If you need to comment on your tab, please use the "Tab Notes" section located below.