Plug In Stereo - Oh Darling (Without Capo)


************************************

| > strum (too lazy to type all the chords out)
| / slide up
| \ slide down
| h hammer-on
| p pull-off
| ~ vibrato
| + harmonic
| x Mute note
| b Bend
| pb Pre-bend
| br Bend release
| pbr Pre-bend release
| brb Bend release bend

************************************
************************************
************************************

Tuning: standard (No Capo)

Verse(x3): You seem quite nice…..
e|-------------------9h10p9p7---------------------------9h10/12------12/14-7-|
B|-----10----10-10-------------8/10\8p7---10---10-10-------------------------|
G|------7-----7--7-------------------------7----7--7-------------------------|
D|------------------7---------------------------------7----------7-----------|
A|--10----------------------------------10-----------------------------------|
E|---------3---------------------------------10------------------------------|


In between verse:
e|---------------------10-10-10-10-10-10-9-7-----------------------------------|
B|--/10--7--------------------------------------10-10/12-10-7------------------|
G|--------9-9/11-7----------------------------------------------9-9/11-7-------|
D|-----------------------------------------------------------------------------|
A|-----------------------------------------------------------------------------|
E|-----------------------------------------------------------------------------|

Verse (x2) You seem quite shy…

Pre-chorus: I really want to…
e|-----------------------------------------------------------------|
B|-10--10---------10--10----7-7---10---10----------10--10-------7--|
G|--7----7---------7----7---7--7---7-----7----------7----7------7--|
D|--7-----9-7h9p7--9-----9--7---7--7------9-0h2p0---9-----9-----7--|
A|--9-------------10--------9------2---------------10------10---9--|
E|------------------------10-----------------------------------10--|

Chorus: Oh darling, I love you so…
e|----------------------------------------------------------------------------------------|
B|----10---10-----10---10-----10---10-----10---10---10---10---10---10--10---10---10---10--|
G|----7----7------7----7------7----7------7----7----7----7----7----7----7----7----7---7---|
D|--------------------------------9-----------9---------7---------7-----------------------|
A|--------9-----------9-----10---------10----------9--------9--------------7---------7----|
E|-10----------10-----------------------------------------------------9---------9---------|

e|-----------------------------------------------------------------------------------------------|
B|----10---10-----10---10-----10---10-----10---10---10---10---10----10--10---10---10---10----10--|
G|----7----7------7----7------7----7------7----7----7----7----7-----7---7----7----7----7------7--|
D|--------------------------------9-----------9---------7---------7---------------------------7--|
A|--------9-----------9-----10---------10----------9---------9--------------7---------7-------9--|
E|-10----------10------------------------------------------------------9---------9-----------10--|

Verse(x2) You seem quite right…

Pre-chorus: I really want to…
e|------------------------------|
B|-10---10----7---10---10----7--|
G|-7----7-----7---7----7-----7--|
D|-7----9-----7---7----9-----7--|
A|-9----10----9---9----10----9--|
E|-----------10-------------10--|

Chorus:Oh Darling..

Chorus: Oh darling, I love you so…
e|----------------------------------------------------------------------------------------|
B|----10---10-----10---10-----10---10-----10---10---10---10---10---10--10---10---10---10--|
G|----7----7------7----7------7----7------7----7----7----7----7----7----7----7----7---7---|
D|--------------------------------9-----------9---------7---------7-----------------------|
A|--------9-----------9-----10---------10----------9--------9--------------7---------7----|
E|-10----------10-----------------------------------------------------9---------9---------|

e|-----------------------------------------------------------------------------------------------|
B|----10---10-----10---10-----10---10-----10---10---10---10---10----10--10---10---10---10----10--|
G|----7----7------7----7------7----7------7----7----7----7----7-----7---7----7----7----7------7--|
D|--------------------------------9-----------9---------7---------7---------------------------7--|
A|--------9-----------9-----10---------10----------9---------9--------------7---------7-------9--|
E|-10----------10------------------------------------------------------9---------9-----------10--|


Bridge: So I gotta ask you..
e|---------------12--7-------------------|
B|--7-------10---10--7--7------10--10->--|
G|--7--7----7----9---7--7--7----7---7>---|
D|--9--7----7-----------9--7----7---7>---|
A|--9--9----7-----------9--9----7---7>---|
E|-----10------------------10-------9>---|

Outro:
e|---------------------------------------------------------------------|
B|-10--10---10--10---10—-10---10—-10---10—-10---10—-10---10—-10---10>--|
G|-7---7----7---7----7---7----7---7----7---9----7---7----7---7----7>---|
D|-7---7----9---9----7---7----7---7----7---9----9---9----7---7----7>---|
A|-9---9----10--10---9---9----7---7----9---9----10—-10---9---9----7>---|
E|-10--10---------------------9---9----10--10---------------------9>---|

e|----------------------------------------------------|
B|--10>--10>--10>--10>--10>--10>--10>--10>---10-------|
G|--7>---7>---7>---7>---7>---7>---7>---7>----7--------|
D|--7>---9>---7>---7>---7>---9>---7>---7>----7--------|
A|--9>---10>--9>---7>---9>---10>--9>---7>----9---7h9--|
E|--10>------------9>---10>------------9>----10-------|
Guitar Tab Creator is intended to store guitar tab created through the tool. It currently does not support in-line text editing. Any text you place in here will be lost. If you need to comment on your tab, please use the "Tab Notes" section located below.