IKSOSE:3

(/) Slide Up  (\) Slide Down  (h) Hammer On  (p) Pull Off  (b) Bend (r) Release (v) Vibrato


E|-------------------------------------------------------------------------------------------------
B|-------------------------------------------------------------------------------------------------
G|-------------------------------------------------------------------------------------------------
D|--------------------------------------------------------------------------9----------------------
A|-----11--11-----11--11-----11-----12--11--------11--11-----11-----11--12-----12--11--11--12--11--
E|--9----------9----------9------9----------9--0----------0------0---------------------------------



E|------------------------------------------------------------------
B|------------------------------------------------------------------
G|------------------------------------------------------------------
D|---------------------------------------------------------------9--
A|--------9--9-----9--9-----9-----9--11--9--7--------7--7-----7-----
E|--0--7--------7--------7-----7---------------0--5--------5--------
http://www.guitartabcreator.com
Guitar Tab Creator is intended to store guitar tab created through the tool. It currently does not support in-line text editing. Any text you place in here will be lost. If you need to comment on your tab, please use the "Tab Notes" section located below.