C Major 4

(/) Slide Up  (\) Slide Down  (h) Hammer On  (p) Pull Off  (b) Bend (r) Release (v) Vibrato


E|----------------------------------------------7--8--10--8--7---------------------------------------
B|---------------------------------------8--10------------------10--8--------------------------------
G|-----------------------------7--9--10--------------------------------10--9--7----------------------
D|-------------------7--9--10----------------------------------------------------10--9--7------------
A|---------7--8--10------------------------------------------------------------------------10--8--7--
E|--8--10--------------------------------------------------------------------------------------------



E|---------------
B|---------------
G|---------------
D|---------------
A|---------------
E|--10--8--7--8--
http://www.guitartabcreator.com
Guitar Tab Creator is intended to store guitar tab created through the tool. It currently does not support in-line text editing. Any text you place in here will be lost. If you need to comment on your tab, please use the "Tab Notes" section located below.