untitled 01

(/) Slide Up  (\) Slide Down  (h) Hammer On  (p) Pull Off  (b) Bend (r) Release (v) Vibrato


E|---------------------------------------------------------------------------------
B|---------------------------------------------------------------------------------
G|-----0---0-----------0---0-----------0---0-----------4-------4-------------------
D|---3---3---3---3---3---3---3---3---2---2---2---2---2---2---2---2-----0---0-------
A|-5-----------5---4-----------4---3-----------3---3-------0---------2---2---2---2-
E|-----------------------------------------------------------------0-----------0---



E|-------------------------------------------------------------------------------
B|-------------------------------------------------------------------------------
G|-------------------------------------------------------0---0-----------0---0---
D|-----0---0-------------0---0-----------2-------5-----4---4---4---4---3---3-----
A|---2---2---2---2-----4---4---4---4---4---4---4---4-5-----------5---3-----------
E|-3-----------3---3/5-----------5---5-------5-----------------------------------



E|-----------------------------------------------------------------------------------
B|-----------------------------------------------------------------------------------
G|-----------0---4-----------4-------4-----------------------------------------------
D|-3---3---2---2---2---2---2---2---2---2-----0---0-------------2-------9---9---------
A|---3---3-----------3---0-----------------2---2---2---2-----4---4---7---7---7---7---
E|-------------------------------3-------3-----------3---3/5-------5-----------5-----



E|-----------------------------0---5-
B|---------------------------0-------
G|-------------0-----1-----2---------
D|-----7-----2-----0-----2-----------
A|---5---5-3-----2-----0-------------
E|-3---------------------------------



E|--------------------------------------------------------------
B|-0-------0--------------0------3-------3------3---------------
G|-5---5-----5----7-----7---7----5---5-----5----0-----0-0-------
D|-7-7---7-----7--5---5-------5--3-3---3-----3--2---2---0-----0-
A|-0-----------------------------0--------------3-3-----2---2---
E|----------------8-8-----------------------------------3-3-----



E|---------------------------------------------
B|-0-0-------------------3-3-3----------2------
G|-5-5-----5--7-7-----7--5-5---5----0-0-0------
D|-7-7---7----5-5---5----3-3-----3--2-2---0-0--
A|-0-0-0-----------------0-0--------3-3---2-2--
E|------------8-8-8-----------------------3-3--



E|-------------------------------------------------------1-1-1--------
B|-0-0-------------3-3-3----------0-0-------------3-3-3--1-1-1--3-3-3-
G|-5-5---5--7-7-7--5-5-5--5-5-5---5-5---5--7-7-7--5-5-5--2-2-2--0-0-0-
D|-7-7-7----5-5-5--3-3-3--3-3-3---7-7-7----5-5-5--3-3-3--0-0-0--0-0-0-
A|-0-0-------------0-0-0----------0-0-------------0-0-0---------2-2-2-
E|----------8-8-8---------6-6-6------------8-8-8----------------------



E|------------------------
B|-0-0--0-0--0-0-0--0-0-0-
G|-5-5--7-7--2-2-2--1-1-1-
D|-7-7--5-5--3-3-3--0-0-0-
A|-0-0--0-0--0-0-0--2-2-2-
E|------------------0-0-0-
http://www.guitartabcreator.com
Guitar Tab Creator is intended to store guitar tab created through the tool. It currently does not support in-line text editing. Any text you place in here will be lost. If you need to comment on your tab, please use the "Tab Notes" section located below.