We Rejoice (Lance)



E|-------------------14b15b14r12------12------12--14---
B|--12/15\12--15\12----------------15------15----------
G|-----------------------------------------------------
D|-----------------------------------------------------
A|-----------------------------------------------------
E|-----------------------------------------------------



E|-------------------14b15b14r12------12---------------
B|--12/15\12--15\12----------------15------15------12--
G|---------------------------------------------14------
D|-----------------------------------------------------
A|-----------------------------------------------------
E|-----------------------------------------------------



E|-------------------14b15b14r12------12------12--14---
B|--12/15\12--15\12----------------15------15----------
G|-----------------------------------------------------
D|-----------------------------------------------------
A|-----------------------------------------------------
E|-----------------------------------------------------



E|---------------------------------------------------
B|--12/15\12--15\12--12--10--12--15--12--10----------
G|-------------------------------------------11--14--
D|---------------------------------------------------
A|---------------------------------------------------
E|---------------------------------------------------
Guitar Tab Creator is intended to store guitar tab created through the tool. It currently does not support in-line text editing. Any text you place in here will be lost. If you need to comment on your tab, please use the "Tab Notes" section located below.