Out Of My Mind - John Mayer Where The Light Is

(/) Slide Up  (\) Slide Down  (h) Hammer On  (p) Pull Off  (b) Bend (r) Release (v) Vibrato
E|------------------------------------------------------------------------------------------------
B|-----------------------------13b15------10--13--10h13p10------10--------------------------------
G|----------------------------------------------------------12------12--10----------12h14--10-----
D|------10--12--12h15-------------------------------------------------------12--10----------------
A|--12-----------------12-------------------------------------------------------------------------
E|------------------------------------------------------------------------------------------------



E|------------------------------------------------------------------------------------------------
B|--------------------------------------------------------------------13b15----10--13--10--13b15--
G|----------------------------------------10------------------------------------------------------
D|--12p10--------------------------7--10----------------------------------------------------------
A|---------12--10----10--8--10--8-----------------------------------------------------------------
E|------------------------------------------------------------------------------------------------



E|--10----------10v--10v------------------------------------------------------------------------------
B|------13--10------------13--10----------------------------------------------------------------------
G|--------------------------------12----------10p12--10p12--10p12--10p12--10p12--10p12--10p12--10p12--
D|----------------------------------------------------------------------------------------------------
A|----------------------------------------------------------------------------------------------------
E|----------------------------------------------------------------------------------------------------



E|---------------------------------------------------------------------------------------
B|---------------------------------------------------------------------------------------
G|--10p12--10p12--10p12--10p12--10p12--10p12--10p12--12--10------------------------------
D|-----------------------------------------------------------12--10--10h12--10-----------
A|---------------------------------------------------------------------------------------
E|---------------------------------------------------------------------------------------



E|---------------------------------------------------------------------------------13----------
B|----------------------------10h13---------------------------------------15v--15------15--17--
G|-----------------------------------10h12-----------------------------------------------------
D|----------10------------------------------10h12---------10-----------------------------------
A|--10--12------12--10-----------------------------10/12---------------------------------------
E|---------------------------------------------------------------------------------------------



E|------------------------------------------------------------------------------
B|--15--17--15h17p15----------15--17--15----------------------------------------
G|--------------------17--14--------------17b18--14v--14v--17b18------19--21\0--
D|------------------------------------------------------------------------------
A|------------------------------------------------------------------------------
E|------------------------------------------------------------------------------



E|----------------------------------------------------------------------------------
B|----------------------------------------------------------------------------------
G|--14--12--------------------------------------------------------------------------
D|----------15--12------15--12----------------------------12--15------12--15--12\---
A|------------------------------15--12--15--------12--15----------------------------
E|----------------------------------------------------------------------------------



E|------------------------------------------------------------------------------------------
B|------------------------------------------------------------------------------------------
G|------10h12--10---------------------------------------------10--12v--10--12v--10--12v-----
D|--10-------------12--10------10--12--10--12v----------------------------------------------
A|-------------------------12---------------------------------------------------------------
E|------------------------------------------------------------------------------------------



E|----------------------------------------------------------------------------------
B|------------------------------------------------13/15--15v--13--------10--10--13--
G|--10--12v--10--12v--12b14--10-----------------------------------------------------
D|-------------------------------12--10--12v--10------------------------------------
A|----------------------------------------------------------------------------------
E|----------------------------------------------------------------------------------



E|----------------------------------------------------------------------------------
B|--15v--15v--15v--15v--15p13--------------------13--10-----------------------------
G|-----------------------------14--12--12v--12v----------12b13--12--10------10--12--
D|----------------------------------------------------------------------12----------
A|----------------------------------------------------------------------------------
E|----------------------------------------------------------------------------------



E|----------------------------------------------------------13--15v--13--------15b17--15v--
B|--15v--13--15v--13--15v--13------15v--15v--15v--15v--v-----------------15----------------
G|-----------------------------------------------------------------------------------------
D|-----------------------------------------------------------------------------------------
A|-----------------------------------------------------------------------------------------
E|-----------------------------------------------------------------------------------------



E|--13----------13------------------------15------15------15------15------15------15------15------
B|------15--15----------15--15--18v--18v------18------18------18------18------18------18------18--
G|------------------------------------------------------------------------------------------------
D|------------------------------------------------------------------------------------------------
A|------------------------------------------------------------------------------------------------
E|------------------------------------------------------------------------------------------------



E|--15b17--15--13------------------
B|-----------------15--15v--13-----
G|---------------------------------
D|---------------------------------
A|---------------------------------
E|---------------------------------
http://www.guitartabcreator.com
Guitar Tab Creator is intended to store guitar tab created through the tool. It currently does not support in-line text editing. Any text you place in here will be lost. If you need to comment on your tab, please use the "Tab Notes" section located below.