John Mayer & BB King licks

(/) Slide Up  (\) Slide Down  (h) Hammer On  (p) Pull Off  (b) Bend (r) Release (v) Vibrato
E|----------------------------------------------------------------------------------------------------
B|--8h10--10v--10v----10--8------------------------8h10--10v------12b13---------10--10v----13--15b16--
G|---------------------------9--7--------------------------------------------9------------------------
D|---------------------------------10-----------------------------------------------------------------
A|----------------------------------------------------------------------------------------------------
E|----------------------------------------------------------------------------------------------------



E|---------------------------------------------------------15b17----------------15b17--13-------------
B|--15b17--10-------12b13/0----------------------------------------------------------------15--12-----
G|---------------9------------------------------------------------------------------------------------
D|----------------------------------------------------------------------------------------------------
A|----------------------------------------------------------------------------------------------------
E|----------------------------------------------------------------------------------------------------



E|--------------------------
B|----------10------12b14v--
G|--14--12------12----------
D|--------------------------
A|--------------------------
E|--------------------------



E|-----------------------------------------------------------------------------
B|--15b16------15--13------15------13--------------------15b16--13------15b17--
G|---------------------14--------------14v--14v---------------------14---------
D|-----------------------------------------------------------------------------
A|-----------------------------------------------------------------------------
E|-----------------------------------------------------------------------------



E|------------------------------------
B|--12b13--12--10------15b17--15--14--
G|------------------------------------
D|------------------------------------
A|------------------------------------
E|------------------------------------



E|-----------------------------------------------------
B|---------------10v----------------------8--10v--10v--
G|---------7--9---------------------7--9---------------
D|--7--10-----------------7--7--10---------------------
A|-----------------------------------------------------
E|-----------------------------------------------------



E|-------------------------------------------------------------------
B|--------13b15--13--10------------------12b13--10-------------------
G|--9--9-----------------12--9----------------------12--9------------
D|------------------------------12v------------------------10v--10v--
A|-------------------------------------------------------------------
E|-------------------------------------------------------------------



E|--------------
B|-------8--10--
G|--7/9---------
D|--------------
A|--------------
E|--------------



E|---------------------------------------------------------------------------------------
B|------------------------------------------------------------------------5--------------
G|--------5/6-------------------------------------5--7-----5--7-----5--7-----7--5--------
D|--------4-5-------------5h7-----5h7-----5h7--7--------7--------7-----------------7--5--
A|---------------------7-------7-------7-------------------------------------------------
E|--10\0---------------------------------------------------------------------------------



E|----------------------------------------------------------------------------------------
B|-------------------------------------5----------------------5--8--5h8p5-----5-----------
G|------------------------7--5v-----7-----7--5v---------5--7---------------7-----7--5-----
D|-------------------------------7---------------7-------------------------------------7--
A|--7--5----------------------------------------------------------------------------------
E|--------8--5----------------------------------------------------------------------------



E|-------------------------------------------------
B|--------5--8/10------------------5--8/10--10--8--
G|--5--7---------------------5--7------------------
D|---------------------7--7------------------------
A|-------------------------------------------------
E|-------------------------------------------------
http://www.guitartabcreator.com
Guitar Tab Creator is intended to store guitar tab created through the tool. It currently does not support in-line text editing. Any text you place in here will be lost. If you need to comment on your tab, please use the "Tab Notes" section located below.