I'm Gonna Find ANother You 2;25 - 2;36 David Ryan Harris Solo Part

(/) Slide Up  (\) Slide Down  (h) Hammer On  (p) Pull Off  (b) Bend (r) Release (v) Vibrato


E|-------------------------------------------------------------------------------------------------
B|-------------------------------------------------------------------17--14--------19--19--17--17--
G|--11--14v--14v--11------11--14v--14v--11--14b15r14b16r14----14h16----------14--------------------
D|------------------------------------------------------------14-----------------------------------
A|-------------------------------------------------------------------------------------------------
E|-------------------------------------------------------------------------------------------------



E|--------------------------
B|--14--14--12------12--10--
G|--------------14----------
D|--------------------------
A|--------------------------
E|--------------------------
http://www.guitartabcreator.com
Guitar Tab Creator is intended to store guitar tab created through the tool. It currently does not support in-line text editing. Any text you place in here will be lost. If you need to comment on your tab, please use the "Tab Notes" section located below.