Come When I Call - John Mayer - Solo

(/) Slide Up  (\) Slide Down  (h) Hammer On  (p) Pull Off  (b) Bend (r) Release (v) Vibrato

E|--------------------------------------------------------------------12b14--12--10-----------------
B|-------8v--8v--6h8--10b11--6--8--8------5--8--8--10b11------8--8-------------------12--10---------
G|--7/9--------------------------------------------------------------------------------------12--9--
D|--------------------------------------------------------------------------------------------------
A|--------------------------------------------------------------------------------------------------
E|--------------------------------------------------------------------------------------------------



E|---------8--------------------------------------8-----------------------------------------------
B|--10b12-----10b12--10--8h10p8-----8------10b12-----10b12--10--8h10p8-----8--------10b12--10-----
G|-------------------------------9--------------------------------------9-------------------------
D|------------------------------------------------------------------------------------------------
A|------------------------------------------------------------------------------------------------
E|------------------------------------------------------------------------------------------------



E|--------------------15--------------------------------------------------------------------------
B|--8-----8------------------------------------------------------------------------15--18--15-----
G|-----9-----12v-----------------3--5--3-----3h5-----3h5--5--3------------------------------------
D|--------------------------3/5-----------3-------3-------------5--3/15---------------------------
A|------------------------------------------------------------------------------------------------
E|------------------------------------------------------------------------------------------------



E|----------------------------------------------------------------3--3--------------------------
B|--15h18p15------20----------------------------------------------3--3------8-----3h5--5--3-----
G|------------17------19------------------------------------------3--3------7--5--3-------------
D|----------------------------12--15--12--12h15p12------17--------2--2--------------------------
A|--------------------------------------------------15------------3--3--------------------------
E|----------------------------------------------------------------------------------------------



E|---------------------------------------------------------------------------------------
B|---------------------15--15--15--18--15--20--18--20--18------------------------15--15--
G|---------------------------------------------------------19--17----15------------------
D|--5--3--5/0------------------------------------------------------------17--------------
A|---------------------------------------------------------------------------------------
E|---------------------------------------------------------------------------------------



E|--13--15--15b16--13--15b16--13--15b16--13--15b16--17--15--13--15------------------20b21--
B|------------------------------------------------------------------15------20--18---------
G|-----------------------------------------------------------------------------------------
D|-----------------------------------------------------------------------------------------
A|-----------------------------------------------------------------------------------------
E|-----------------------------------------------------------------------------------------



E|--20--18----------------------------------
B|----------20--18--------------------------
G|------------------19--17--15--------------
D|------------------------------17--15--17--
A|------------------------------------------
E|------------------------------------------
http://www.guitartabcreator.com
Guitar Tab Creator is intended to store guitar tab created through the tool. It currently does not support in-line text editing. Any text you place in here will be lost. If you need to comment on your tab, please use the "Tab Notes" section located below.