Snow patrol - This isn't everything you are acoustic

(/) Slide Up  (\) Slide Down  (h) Hammer On  (p) Pull Off  (b) Bend (r) Release (v) Vibrato
E|--------------------------------------------------------
B|--9---------9---------9-------------9---------9---------
G|-----11--------11--------11-----11--------11--------11--
D|---------8---------8---------9---------9---------9------
A|--------------------------------------------------------
E|--------------------------------------------------------



E|------------------------------------------------------------
B|---------11---------11----------------11---------11---------
G|-----11---------11---------11-----11---------11---------11--
D|--9----------9----------9------9----------9----------9------
A|------------------------------------------------------------
E|------------------------------------------------------------
http://www.guitartabcreator.com
Guitar Tab Creator is intended to store guitar tab created through the tool. It currently does not support in-line text editing. Any text you place in here will be lost. If you need to comment on your tab, please use the "Tab Notes" section located below.