Intro

(/) Slide Up  (\) Slide Down  (h) Hammer On  (p) Pull Off  (b) Bend (r) Release (v) Vibrato


E|--------------0-----------------------0--------------0-----------------------0--
B|--------3--------3--1--------1--3--1-----------3--------3--1--------1--3--1-----
G|-----2-----2--------------2-----------------0-----0--------------0--------------
D|--3--------------------3-----------------2--------------------2-----------------
A|--------------------------------------------------------------------------------
E|--------------------------------------------------------------------------------



E|-----------------5-----------------7--5--0-------
B|--------3--5--3-----------3--5--3-----------3----
G|-----4-----------------4-------------------------
D|--5-----------------5--------------------------5
A|-------------------------------------------------
E|-------------------------------------------------
http://www.guitartabcreator.com
Guitar Tab Creator is intended to store guitar tab created through the tool. It currently does not support in-line text editing. Any text you place in here will be lost. If you need to comment on your tab, please use the "Tab Notes" section located below.