kommelstyle style

(/) Slide Up  (\) Slide Down  (h) Hammer On  (p) Pull Off  (b) Bend (r) Release (v) Vibrato

(W|WW) Whole (H|HH) Half (Q|QQ) Quarter (E|EE) 8th (S|SS) 16th (T|TT) 32nd (X|XX) 64th
E|-----------------------0-----------------
B|-----------1-----1--------1--0-----------
G|--------2-----2-----2-----------2-----0--
D|-----3-----------------------------------
A|--0--------------------------------3-----
E|-----------------------------------------


t: none none none none none none none none none none none none none none
E|-----------------------------------------------
B|-----------1-----1-----1--0--------------------
G|--------2-----2-----2--------2--0--------0-----
D|-----3-----------------------------3-----------
A|--0-----------------------------------3--------
E|-----------------------------------------------
http://www.guitartabcreator.com
Guitar Tab Creator is intended to store guitar tab created through the tool. It currently does not support in-line text editing. Any text you place in here will be lost. If you need to comment on your tab, please use the "Tab Notes" section located below.