This Is Your Majesty/ Lead Guitar Tablature

(/) Slide Up  (\) Slide Down  (h) Hammer On  (p) Pull Off  (b) Bend (r) Release (v) Vibrato


E|---------------------------------------------------------------------------------
B|-------------------------------------------------------------------12------------
G|--9--9--9--8v------4--4/6--6------9--9--9\8------4--4/6--6------9------9--8v-----
D|---------------------------------------------------------------------------------
A|---------------------------------------------------------------------------------
E|---------------------------------------------------------------------------------



E|-----------------------------------------------------------------
B|-----------------------------------------------------------------
G|--4--4/6--6--6--6--6--6--6--6--6--4--3--3--3--3--3--3--3--3--4v--
D|-----------------------------------------------------------------
A|-----------------------------------------------------------------
E|-----------------------------------------------------------------



E|--11----------11----------11------14----------14----------14---------
B|------12----------12----------12------12----------12----------12-----
G|----------11----------11------------------11----------11-------------
D|---------------------------------------------------------------------
A|---------------------------------------------------------------------
E|---------------------------------------------------------------------



E|--11----------11----------11------14v--
B|------12----------12----------12-------
G|----------11----------11---------------
D|---------------------------------------
A|---------------------------------------
E|---------------------------------------



E|--7-----7-----7-----7-----7-----7-----7-----9-----6-----6-----6-----6-----6-----6-----6-----7--
B|-----7-----7-----7-----7-----7-----7-----7-----7-----7-----7-----7-----7-----7-----7-----7-----
G|-----------------------------------------------------------------------------------------------
D|-----------------------------------------------------------------------------------------------
A|-----------------------------------------------------------------------------------------------
E|-----------------------------------------------------------------------------------------------



E|--4-----4-----4-----4-----4-----4-----4-----4-----
B|-----5-----5-----5-----5-----5-----5-----5-----5--
G|--------------------------------------------------
D|--------------------------------------------------
A|--------------------------------------------------
E|--------------------------------------------------



E|--------
B|--------
G|--------
D|--------
A|--------
E|--------
http://www.guitartabcreator.com
Guitar Tab Creator is intended to store guitar tab created through the tool. It currently does not support in-line text editing. Any text you place in here will be lost. If you need to comment on your tab, please use the "Tab Notes" section located below.