Who Compares/Lead Guitar Tablature

(/) Slide Up  (\) Slide Down  (h) Hammer On  (p) Pull Off  (b) Bend (r) Release (v) Vibrato

E|------------------------------------------------------------------------------11-----------12v--
B|---------12------12--------------12----------12---------------12--------------------------------
G|--11h13------13------11------11----------11------------11h13------13----9/11--------11/13-------
D|-------------------------13----------14---------------------------------------------------------
A|------------------------------------------------------------------------------------------------
E|------------------------------------------------------------------------------------------------



E|--------------------------------------------------
B|--------------------------------------------------
G|--------9------------8------------4----------8----
D|-----9------------9------------4----------9-------
A|--7-----------------------------------------------
E|---------------7------------4----------7----------



E|---------------------------------------------
B|---------------------------------------------
G|--9--9--8--8--9--9------9--9--8--8--9--9-----
D|--9--9--9--9--9--9------9--9--9--9--9--9-----
A|---------------------------------------------
E|---------------------------------------------



E|--0-------0---------0---------0--------0---------0--
B|--0-------0---------0---------0--------0---------0--
G|--13------16--------11--------9--------11--------9--
D|--x---------------------------7--------9---------7--
A|--11------14--------9---------9--------11--------0--
E|--0-------0---------0---------0--------0------------
http://www.guitartabcreator.com
Guitar Tab Creator is intended to store guitar tab created through the tool. It currently does not support in-line text editing. Any text you place in here will be lost. If you need to comment on your tab, please use the "Tab Notes" section located below.