Show Us Your Heart/ Lead Guitar Tablature

(/) Slide Up  (\) Slide Down  (h) Hammer On  (p) Pull Off  (b) Bend (r) Release (v) Vibrato


E|----------------------------------9-----------------------------------------------9-------------
B|-----9-----12---------------9--------12--9---------------9-----12-----------9--------12--9v-----
G|--9-----9----------------9-----9----------------------9-----9------------9-----9----------------
D|------------------------------------------------------------------------------------------------
A|------------------------------------------------------------------------------------------------
E|------------------------------------------------------------------------------------------------



E|--------------------------------------------------------------------------------------------------
B|--5----------------------------10----------------------------9----------------7-------------------
G|--------------------------------------------------------------------------------------------------
D|--------------------------------------------------------------------------------------------------
A|--------------------------------------------------------------------------------------------------
E|--------------------------------------------------------------------------------------------------



E|----------7--------------------7-----
B|--10---------9--------9-----------7--
G|-------------------------------------
D|-------------------------------------
A|-------------------------------------
E|-------------------------------------



E|----------7----------------7----------------------------------------------------
B|--10---------9--------7/9-----------9--9--9--9--9--9--9--9\5--5--5--5--5--5--5--
G|--------------------------------------------------------------------------------
D|--------------------------------------------------------------------------------
A|--------------------------------------------------------------------------------
E|--------------------------------------------------------------------------------



E|----------------------------------------------------------------------------------------------
B|----------12----------12--------------12----------12--------------12------12----------12------
G|------------------------------14--14------14--14------14--13--13------13------11--11------11--
D|--14--14------14--14------14------------------------------------------------------------------
A|----------------------------------------------------------------------------------------------
E|----------------------------------------------------------------------------------------------



E|--11------12v----------------------------------------------------------------------------------
B|--12--12---------------------------------------12----------12--------------12----------12------
G|--11---------------------------------------------------------------14--14------14--14------14--
D|---------------------------------------14--14------14--14------14------------------------------
A|-----------------------------------------------------------------------------------------------
E|-----------------------------------------------------------------------------------------------



E|---------------------------------------------------------------
B|---------------------------------------------------------------
G|--13v--------------------------9v--------------------------4v--
D|---------------------------------------------------------------
A|---------------------------------------------------------------
E|---------------------------------------------------------------
http://www.guitartabcreator.com
Guitar Tab Creator is intended to store guitar tab created through the tool. It currently does not support in-line text editing. Any text you place in here will be lost. If you need to comment on your tab, please use the "Tab Notes" section located below.