Emmanuel/Lead Guitar Tablature

(/) Slide Up  (\) Slide Down  (h) Hammer On  (p) Pull Off  (b) Bend (r) Release (v) Vibrato

E|--------------------------------------------
B|--10--10------3------------7--7----------2--
G|--------------------------------------------
D|--------------------------------------------
A|--9---9-------2------------5--5----------0--
E|--------------------------------------------



E|--------------------------------------------
B|--10--10--------3--------8--7------------2--
G|--------------------------------------------
D|--------------------------------------------
A|--9---9---------2--------5--5------------0--
E|--------------------------------------------



E|--------------------------------
B|--0----3--2------0--7--2--------
G|--------------------------------
D|--------------------------------
A|-------2--0---------5--0--------
E|--3--------------3--------------



E|--------------------
B|--7--2--0-----3--2--
G|--------x--2--------
D|--------------------
A|--5--0--------2--0--
E|--------3--2--------



E|------------------------------
B|--10--10------3--3------7--5--
G|--11--9-------4--2------7--6--
D|--12--11------5--4------9--7--
A|---------------------------0--
E|------------------------------



E|-----------
B|--0--3--2--
G|-----------
D|-----------
A|-----2--0--
E|--3--------
http://www.guitartabcreator.com
Guitar Tab Creator is intended to store guitar tab created through the tool. It currently does not support in-line text editing. Any text you place in here will be lost. If you need to comment on your tab, please use the "Tab Notes" section located below.