Closer/Lead Guitar Part

(/) Slide Up  (\) Slide Down  (h) Hammer On  (p) Pull Off  (b) Bend (r) Release (v) Vibrato


E|----------------------------------------------------------------------------
B|----------------------------------------------------------------------------
G|-----9--6----4--6\2---------------------------------------9--6----4p2h4/6v--
D|--7----------------------------------------------------7--------------------
A|----------------------------------------------------------------------------
E|----------------------------------------------------------------------------



E|--------5-----------5-----------5-----------5-----------5-----------5-----------4-----
B|-----5-----5-----5-----5-----5-----5-----5-----5-----5-----5-----5-----5-----5-----5--
G|--------------------------------------------------------------------------------------
D|--------------------------------------------------------------------------------------
A|--5-----------------------------------------------5-----------------------------------
E|--------------5-----------4-----------2-----------------------5-----------4-----------



E|----------------------------------------------
B|--17------15------14------15------17----------
G|------14------14------14------14------14--13--
D|----------------------------------------------
A|----------------------------------------------
E|----------------------------------------------
http://www.guitartabcreator.com
Guitar Tab Creator is intended to store guitar tab created through the tool. It currently does not support in-line text editing. Any text you place in here will be lost. If you need to comment on your tab, please use the "Tab Notes" section located below.