Closer/ Guitar Solo

(/) Slide Up  (\) Slide Down  (h) Hammer On  (p) Pull Off  (b) Bend (r) Release (v) Vibrato


E|----------------------------------------------------------------
B|--10p9----------------------------------------------------------
G|--------11p9----9h11--9--9--9-------------------------9---------
D|----------------------------9h11----9\7--7----7/9/11-----11--9--
A|----------------------------------------------------------------
E|----------------------------------------------------------------



E|-----------------------------------------------------------------------
B|-----------------------------------------------------------------------
G|----------9h11----11--9--11------9h11/13----11h13/14------13h14/16-----
D|--7h9/11---------------------------------------------------------------
A|-----------------------------------------------------------------------
E|-----------------------------------------------------------------------



E|--------------------------------------------------------------------------
B|------17------17------17------17------17------19v----19v----19v----19v----
G|--18------18------18------18------18------18------------------------------
D|--------------------------------------------------------------------------
A|--------------------------------------------------------------------------
E|--------------------------------------------------------------------------



E|-----------------------------------------------
B|---------17------------------------------------
G|--16h18------16h18------16p14--18\16--14-------
D|------------------------------------------11v--
A|-----------------------------------------------
E|-----------------------------------------------



E|-----------------------------------------------------------------------------
B|--17------------------------17-----------------------------------------------
G|--16h18p16------------------16h18p16------------14-----------------9---------
D|------------19--16--------------------19--------14h16p14\12--------9h11p9\7--
A|-----------------------------------------------------------------------------
E|-----------------------------------------------------------------------------



E|-----------------------------
B|-----------------------------
G|-----------------------------
D|-------7h9/11\9------6\4-----
A|--7/9------------------------
E|-----------------------------
http://www.guitartabcreator.com
Guitar Tab Creator is intended to store guitar tab created through the tool. It currently does not support in-line text editing. Any text you place in here will be lost. If you need to comment on your tab, please use the "Tab Notes" section located below.