Thankfully

E|-----------------------------------------------------------------
B|--------------------------------------------------5--------------
G|------2-----2---------4-----4---------6-----6-----------6-----6--
D|----2-----2-----2---4-----4-----4---6-----6-----6-----6-----6----
A|--0-----0-----0---2-----2-----2---4-----4-----4-----4-----4------
E|-----------------------------------------------------------------

E|--------------------------------------------------------4--------
B|--------------------------------------------------5-------5-4-0--
G|------2-----2---------4-----4---------6-----6--------------------
D|----2-----2-----2---4-----4-----4---6-----6-----6-----6----------
A|--0-----0-----0---2-----2-----2---4-----4-----4-----4------------
E|-----------------------------------------------------------------

Been going 5 months strong
Did you think it would last this long?
Cause I-sure-did-not

Darling can you remember?
It was only last September
Don't know about you but I forgot (How I was)

E|----0--------0--------0--------0--------4------------------------
B|----0--------0--------0--------0----------5-4-0------------------
G|----2--------4--------6--------6---------------------------------
D|----2--------4--------6--------6---------------------------------
A|----0--------2--------4--------4---------------------------------
E|----0--------0--------0--------0---------------------------------

E|----0--------0--------0--------0--------4-4-4-7-5-4-0------------
B|----0--------0--------0--------0---------------------------------
G|----2--------4--------6--------6---------------------------------
D|----2--------4--------6--------6---------------------------------
A|----0--------2--------4--------4---------------------------------
E|----0--------0--------0--------0---------------------------------

Still scared to hold your hand
We shared our favourite bands
Discussed our life plans

It was at that house party
Where you laid those arms around me
That's how this all got started (and thankfully!)
Thankfully (x2)

E|-----------------------------------------------------------------
B|------0-----0---------0-----0---------5-----5-----7-----5-----5--
G|----2-----2-----2---6-----6-----4---6-----6-----6-----6-----6----
D|--2-----2-----2---4-----4-----4---6-----6-----6-----6-----6------
A|-----------------------------------------------------------------
E|-----------------------------------------------------------------

E|----------------------------------------------------7---4-2-0----
B|------0-----0---------0-----0---------5-----5-----7-----------0--
G|----2-----2-----2---6-----6-----4---6-----6-----6----------------
D|--2-----2-----2---4-----4-----4---6-----6-----6------------------
A|-----------------------------------------------------------------
E|-----------------------------------------------------------------

We're not without our problems
But we have the will to solve them
Please don't ever get too mad at me

And in return I'll give you
A piece of my mind, a clear view
To my heart, my complete honesty!

E|----0--------0--------0--------0--------4------------------------
B|----0--------0--------0--------0----------5-4-0------------------
G|----2--------4--------6--------6---------------------------------
D|----2--------4--------6--------6---------------------------------
A|----0--------2--------4--------4---------------------------------
E|----0--------0--------0--------0---------------------------------

E|----0--------0--------0--------0--------4-4-4-7-5-4-0------------
B|----0--------0--------0--------0---------------------------------
G|----2--------4--------6--------6---------------------------------
D|----2--------4--------6--------6---------------------------------
A|----0--------2--------4--------4---------------------------------
E|----0--------0--------0--------0---------------------------------

I know your friends all hate me
They don't want you to date me
It's getting worse lately

Not sure what I did wrong
Kinda why I wrote this song
To prove our love is strong

Every problem we will push through
I only want to be around you
Man I'm so glad I found you

http://www.guitartabcreator.com
Guitar Tab Creator is intended to store guitar tab created through the tool. It currently does not support in-line text editing. Any text you place in here will be lost. If you need to comment on your tab, please use the "Tab Notes" section located below.