Song number 1

(/) Slide Up  (\) Slide Down  (h) Hammer On  (p) Pull Off  (b) Bend (r) Release (v) Vibrato

E|--------------------------------------------------------|
B|--------------------------------------------------------|
G|----------------9---------------------------------------|
D|------------10-----10-----------------------------------|
A|-----9--12-------------12--10--9--10--9--0--3--3--3--0--|
E|--0-------------------------------10--9--0--3--3--3--0--|x3
. . .

E|--------------------------------------------------------|
B|--------------------------------------------------------|
G|----------------9---------------------------1010101097--|
D|------------10-----10-----------------------x-x-x-x-xx--|
A|----9--12--------------12--10--9--10--9--0--9-9-9-9-75--|
E|--0-------------------------------10--9--0--------------|

Guitar Tab Creator is intended to store guitar tab created through the tool. It currently does not support in-line text editing. Any text you place in here will be lost. If you need to comment on your tab, please use the "Tab Notes" section located below.