Frere Jacques cover

(/) Slide Up  (\) Slide Down  (h) Hammer On  (p) Pull Off  (b) Bend (r) Release (v) Vibrato


E|--------------------------------------------------------------------------------------------------
B|--------------------------------------------------------------------------------------------------
G|--------5-----------5-----------5-----------5-----------4-----------4-----5--5--5--5--5--5--5--5--
D|-----5-----5-----5-----5-----5-----5-----5-----5-----5-----5-----5-----5--5--5--5--5--5--5--5--5--
A|--3-----------3-----------3-----------3-----------2-----------2-----------3--3--3--3--3--3--3--3--
E|--------------------------------------------------------------------------------------------------



E|-----------------------------------------------------------------------------------------------------
B|-----------------------------------------------------------------------------------------------------
G|--5-----------------6--5--5--3--4--5--5--3--4--5--5--3--4--5--5--3--4--5--5--3--4--5--5--3--4--5-----
D|--5--4--3--3--3--3--6--5--5--3--4--5--5--3--4--5--5--3--4--5--5--3--4--5--5--3--4--5--5--3--4--5-----
A|--3--4--3--3--3--3--4--3--3--1--2--3--3--1--2--3--3--1--2--3--3--1--2--3--3--1--2--3--3--1--2--3-----
E|-----2--1--1--1--1--------------------------------------------------------------------------------2--



E|--------------------------------------------------3--3--3--3--3-----------------------------------
B|--------------------------------------------------4--4--4--4--4-----------------------------------
G|-----------------6--5--5--3--4--5--5--3--4--5--5--5--5--5--5--5--3--3--3--------------------5-----
D|--4--3--3--3--3--6--5--5--3--4--5--5--3--4--5--5--5--5--5--5--5--3--3--3--5--5--------------5-----
A|--4--3--3--3--3--4--3--3--1--2--3--3--1--2--3--3--3--3--3--3--3--1--1--1--5--5--------3--5--3-----
E|--2--1--1--1--1-----------------------------------------------------------3--3--3--6--------------



E|-----3--3--3--3--3-----------------------------------3--3--3--3--3--------------------------------
B|-----4--4--4--4--4-----------------------------------4--4--4--4--4--------------------------------
G|--5--5--5--5--5--5--3--3--3--------------------5--5--5--5--5--5--5--3--3--3-----------------5--5--
D|--5--5--5--5--5--5--3--3--3--5--5--------------5--5--5--5--5--5--5--3--3--3--5--5-----------5--5--
A|--3--3--3--3--3--3--1--1--1--5--5--------3--5--3--3--3--3--3--3--3--1--1--1--5--5--------3--3--3--
E|-----------------------------3--3--3--6--------------------------------------3--3--3--6-----------



E|--3--3--3--3--3----------------------------------------------------------------------------------
B|--4--4--4--4--4----------------------------------------------------------------------------------
G|--5--5--5--5--5--3--3--3-------------------------------------------------------------------------
D|--5--5--5--5--5--3--3--3--5--------------------------------------------------------5--8--10--12--
A|--3--3--3--3--3--1--1--1--5--------3--5--3-----------3--5--3-----------3--5--3-----5--8--10--12--
E|--------------------------3--3--6-----------6--3--6-----------6--3--6-----------6--3--6--8---10--



E|---------------------------------------------------------------------------
B|---------------------------------------------------------------------------
G|---------------------------------------------------------------------------
D|--10--8--5--8--10--12--10--8--5--5--5--5--5--5--5--5--5--5--5--5--5-----5--
A|--10--8--5--8--10--12--10--8--5--5--5--5--5--5--5--5--5--5--5--5--5--5--5--
E|--8---6--3--6--8---10--8---6--3--3--3--3--3--3--6--3--3--3--3--3--3--6--3--



E|----------------------------------------------------------------------------------------------
B|----------------------------------------------------------------------------------------------
G|----------------------------------------------------5--5--5-----------------------5--5--5--5--
D|----------------------------------5--5--5--3--3--3--5--5--5--5--5--5--5--5--5--5--5--5--5--5--
A|----------------------------------5--5--5--3--3--3--3--3--3--5--5--5--5--5--5--5--3--3--3--3--
E|----------------------------------3--3--3--1--1--1-----------3--3--3--3--3--3--3--------------



E|--------------------------------------------------------------------------------------------------
B|--------------------------------------------------------------------------------------------------
G|--5--5--5--5--5--5--5--5--5--5--5--5--------------------------5--5--5--5--5--5--5--5--------------
D|--5--5--5--5--5--5--5--5--5--5--5--5--3--3--3--3--3--3--3--3--5--5--5--5--5--5--5--5--5--5--5--5--
A|--3--3--3--3--3--3--3--3--3--3--3--3--3--3--3--3--3--3--3--3--3--3--3--3--3--3--3--3--5--5--5--5--
E|--------------------------------------1--1--1--1--1--1--1--1--------------------------3--3--3--3--



E|--------------------------------------6--3--------------------------------
B|-----------------------------------5--------6--3--------------------------
G|--------------5--5--5--5-----------5--------------5--3--------------------
D|--3--3--3--3--5--5--5--5--5--5--5-----------------------5--3--------------
A|--3--3--3--3--3--3--3--3--5--5--5--3--------------------------5--3--------
E|--1--1--1--1--------------3--3--3-----------------------------------6--3--
http://www.guitartabcreator.com
Guitar Tab Creator is intended to store guitar tab created through the tool. It currently does not support in-line text editing. Any text you place in here will be lost. If you need to comment on your tab, please use the "Tab Notes" section located below.