Mr Sands

(/) Slide Up  (\) Slide Down  (h) Hammer On  (p) Pull Off  (b) Bend (r) Release (v) Vibrato
t: W W W W W undefined W W W W undefined W W W W W undefined W W W W W W W W undefined
E|-----------------|--------6--8--|-----------------|--------------------------|--
B|-----------------|--6--8--------|-----------------|--------------------------|--
G|-----5-----3--5--|--------------|-----5-----3--5--|--------------3-----5--5--|--
D|--------5--------|--------------|--------5--------|--------3--5-----5--------|--
A|--3--------------|--------------|--3--------------|--5--6--------------------|--
E|-----------------|--------------|-----------------|--------------------------|--



E|-----------------|--------6--8--|--3--3--4--4--|--1--1--3--3--|--
B|-----------------|--6--8--------|--4--4--4--4--|--1--1--3--3--|--
G|-----5-----3--5--|--------------|--3--3--5--5--|--2--2--4--4--|--
D|--------5--------|--------------|--5--5--6--6--|--3--3--5--5--|--
A|--3--------------|--------------|--------------|--0--0--------|--
E|-----------------|--------------|--------------|--------------|--



E|----------------------------------------------|--------------------------------------------|--
B|--------------------------------3--4--3--6/8--|--------------------------3--4--3-----------|--
G|-----5--5--5--3-----3--5--3--5----------------|-----5--5--5--3-----3--5-----------5--3-----|--
D|-----------------5----------------------------|-----------------5-----------------------5--|--
A|--3-------------------------------------------|--3-----------------------------------------|--
E|----------------------------------------------|--------------------------------------------|--



E|----------------------------------------------|--11--11--8------8--8---------|-----
B|--------------------------------3--4--3--6/8--|-------------11--------11-----|-----
G|-----5--5--5--3-----3--5--3--5----------------|---------------------------8--|-----
D|-----------------5----------------------------|------------------------------|-----
A|--3-------------------------------------------|------------------------------|-----
E|----------------------------------------------|------------------------------|-----



E|----------------------------|--
B|----------------------------|--
G|--10--8--10--11--10--8------|--
D|------------------------10--|--
A|----------------------------|--
E|----------------------------|--
http://www.guitartabcreator.com
Guitar Tab Creator is intended to store guitar tab created through the tool. It currently does not support in-line text editing. Any text you place in here will be lost. If you need to comment on your tab, please use the "Tab Notes" section located below.