Kung Fu Fighting - Melody and Fill Tabs

(/) Slide Up  (\) Slide Down  (h) Hammer On  (p) Pull Off  (b) Bend (r) Release (v) Vibrato


E|-----------------------------------|--7--7--7--7--5----5----------5--|--
B|-----------------------------------|------------------------7--7-----|--
G|-----------------------------------|---------------------------------|--
D|--------------0----4----2--2----0--|---------------------------------|--
A|--0--0--2--2-----------------------|---------------------------------|--
E|-----------------------------------|---------------------------------|--



E|-------------------------------|--3--2--3----2--0--2----0-----0----|--
B|-------------------------------|---------------------------3-------|--
G|--4--2--4----------------------|-----------------------------------|--
D|-------------4----2--2----0----|-----------------------------------|--
A|-------------------------------|-----------------------------------|--
E|-------------------------------|-----------------------------------|--



E|--------------------------------------|--7--7--7--7--5----5--------------5--|--
B|--------------------------------------|------------------------7----7-------|--
G|--------------------------------------|-------------------------------------|--
D|--------------0----/4----2--2----4----|-------------------------------------|--
A|--0--0--2--2--------------------------|-------------------------------------|--
E|--------------------------------------|-------------------------------------|--



E|------------------------------------|--3--2--3----2--0--2----0-----0----|--
B|------------------------------------|---------------------------3-------|--
G|------------------------------------|-----------------------------------|--
D|--------------0----/2----2--2----0--|-----------------------------------|--
A|--0--0--2--2------------------------|-----------------------------------|--
E|------------------------------------|-----------------------------------|--



E|----------------------------------|--------------------------|--
B|----------------------------------|--------------------------|--
G|--4--2--4-------------------------|--------------------------|--
D|-------------4----4--2----0--4----|-------0----0--2----------|--
A|----------------------------------|--0-----------------2--2--|--
E|----------------------------------|--------------------------|--



E|----------------------------|--------------------------|--
B|----------------------------|--------------------------|--
G|----------------------------|--------------------------|--
D|----------4----4--2----4----|-------0----0--2----------|--
A|--0--0----------------------|--0---------------2--2----|--
E|----------------------------|--------------------------|--



E|-----------------------------|--------------------------|--
B|-----------------------------|--------------------------|--
G|-----------------------------|--------------------------|--
D|-----0----4----4--2----0--4--|-------0--0--2------------|--
A|--2--------------------------|--0---------------2--2----|--
E|-----------------------------|--------------------------|--



E|---------------------------------------|--------------------------------|--
B|---------------------------------------|--------------------------------|--
G|---------------------------------------|-------4------2----2-------2----|--
D|-----------0----4----4--2----0----4----|--4---------------------4-------|--
A|--0--0--2------------------------------|--------------------------------|--
E|---------------------------------------|--------------------------------|--
http://www.guitartabcreator.com
Guitar Tab Creator is intended to store guitar tab created through the tool. It currently does not support in-line text editing. Any text you place in here will be lost. If you need to comment on your tab, please use the "Tab Notes" section located below.