To Zanarkand

(/) Slide Up  (\) Slide Down  (h) Hammer On  (p) Pull Off  (b) Bend (r) Release (v) Vibrato


I have two versions of this so check out what's best for you. ;) - tiivis; monoviklosh

First Version ;) medium


e--0-----0--2--3-|-----------0-2-|-----------------------------------|--0---0---0---0-------3------|
B----------------|--3---3---3----|--0---0---0---0-----3--------------|--1---1---1---1---3-------1--|
G------0---------|----2---2------|----------------2------------------|----2---2---2-------------2--|
D----2---2-------|--0------0-----|----2---2---2--------4---4---4-----|--------------------------3--|
A--------------3-|-------------2-|--3---3---3---3--------4---4---4---|-----------------------------|
E--0-------0-----|---------------|---------------------2---2---2---2-|-----------------------------|



e--0-----0--2--3--2--0-----0-------|--0-----0--2--3--2--3--5--3-5--7--|
B-----0-----------------3----3--0--|-----0----------------------------|
G----------------------------------|----------------------------------|
D--2--------------------0----------|--2-------------------------------|
A--------------3-------------------|--------------3--------5----------|
E-------------------------------3--|-------------------------------3--|



e--0-----0--2--3--2--0-----0-------|-----------------------------------------|
B-----0-----------------3----3--0--|-------0---0---0---0-----3---------------|
G----------------------------------|--0-2-----------------2------0--0--------|
D--2--------------------0----------|---------2---2---2----------------0---2--|
A--------------3-------------------|-------3---3---3---3----------------0-2--|
E-------------------------------3--|-----------------------------3--3-2---0--|


-------------------------------------------------------------------------------------

Second Version. ;) easy



Intro

e--0-------0-2-3--------------------0-2--|
B--------0----------------3-------3------|
G------0------------------------2--------|
D----2----------------------0-4----------|
A----------------------------------------|
E----------------------------------------|

e--7-7-7-7-5---10-3----------0-0-0-0-----3----|
B------------------------------------3-----1--|
G---------------------------------------------|
D---------------------------------------------|
A---------------------------------------------|
E---------------------------------------------|

Main Theme

e--0-----0-2-3-2-0-----0--------------0-----0-2-3-2-3-5-3-5-7--|
B------0-----------3-----3-0--------------0--------------------|
G--------------------------------------------------------------|
D--------------------------------------------------------------|
A--------------------------------------------------------------|
E--------------------------------------------------------------|

e--0-----0-2-3-2-0-----0----------------------------------------------|
B------0-----------3-----3-0--------------0-0-0-0-----3---------------|
G-------------------------------------0-2---------2------0---0--------|
D--------------------------------------------------------------4-0-2--|
A---------------------------------------------------------------------|
E---------------------------------------------------------------------|

e------0-0---------3-3----------7---14-14----------5---12-12-11--|
B----------3-1-0-------------------------------------------------|
G--2-------------------------------------------------------------|
D----------------------------------------------------------------|
A----------------------------------------------------------------|
E----------------------------------------------------------------|

e------2-2-0-------5-5----------4-0-------2--------------|
B--0---------3-2--------------------2-0---------------0--|
G-------------------------------------------2-------2----|
D-------------------------------------------------4------|
A--------------------------------------------------------|
E--------------------------------------------------------|


Thanks! :) And please give credit. ;)
Guitar Tab Creator is intended to store guitar tab created through the tool. It currently does not support in-line text editing. Any text you place in here will be lost. If you need to comment on your tab, please use the "Tab Notes" section located below.