United (In Progress)

(/) Slide Up  (\) Slide Down  (h) Hammer On  (p) Pull Off  (b) Bend (r) Release (v) Vibrato


h p p
E|--0--0--3--5--7--0--3--2--2--3--2--------|
B|--3--------------------------------3--0--|
G|--0--------------------------------------|
D|-----------------------------------------|
A|-----------3-----------------------------|
E|-----------------------------------------|



E|--5-----------7-----------10-----------10-----------|
B|--------0-----------0------------0---------0--------|
G|-----0-----0-----0-----0------0-----0---------0--0--|
D|----------------------------------------------------|
A|--3-----------5-----------7-------------------------|
E|----------------------------------------------------|


http://www.guitartabcreator.com
Guitar Tab Creator is intended to store guitar tab created through the tool. It currently does not support in-line text editing. Any text you place in here will be lost. If you need to comment on your tab, please use the "Tab Notes" section located below.