Ready to Stand (INCOMPLETE)

(/) Slide Up  (\) Slide Down  (h) Hammer On  (p) Pull Off  (b) Bend (r) Release (v) Vibrato
E|--------------|
B|--0-----------|
G|--------2-----| x2
D|-----2-----2--|
A|--0-----------|
E|--------------|



E|-----------------|
B|--1--------------|
G|--------0--------| x2
D|-----2-----2-----|
A|--3--------------|
E|-----------------|



E|--------------------------------------------------|
B|--0-----------0-----------------------------------|
G|--------0-----------0-----2-----2-----4-----2-----|
D|-----0-----0-----0-----0-----0-----0-----0-----0--|
A|--------------2-----------------------------------|
E|--3-----------------------------------------------|
http://www.guitartabcreator.com
Guitar Tab Creator is intended to store guitar tab created through the tool. It currently does not support in-line text editing. Any text you place in here will be lost. If you need to comment on your tab, please use the "Tab Notes" section located below.