The Joy of Victory

(/) Slide Up  (\) Slide Down  (h) Hammer On  (p) Pull Off  (b) Bend (r) Release (v) Vibrato

"The Joy of Victory" by tiivis (Felipe Jaime M. Uy/Maranon)

E|------------3-----------0--|------------3-----------0--|
B|---------1-----1-----1-----|---------1-----1-----1-----|
G|------2-----------2--------|------2-----------2--------|
D|---3-----------------------|---3-----------------------|
A|---------------------------|---------------------------|
E|---------------------------|---------------------------|

E|---------------0--------0--|
B|---------1--3--------1-----|
G|------0-----------0--------| REPEAT THIS X2
D|---------------------------|
A|---3-----------------------|
E|---------------------------|


Continuation

E|---3--0--------3--0-----------------3--0--3--3--0--0--3--3--0|
B|---------3--1--------------1--3--1--------1--1--3--3--1--1--3|
G|------------------------0------------------------------------|
D|---------------------2---------------------------------------|
A|-------------------------------------------------------------|
E|-------------------------------------------------------------|

E|---3--------------0------|
B|------3-----3--3-----3--1|
G|---------0---------------|
D|-------------------------|
A|-------------------------|
E|---3---------------------|

Repeat everything Again :))

Strumming . . .

Bridge

E|------------0--3--0--------------------------3--0--------0--3--0--|
B|---------------------3--1--------1--1--3--1-----------------------|
G|---------2--------------------------------------------------------|
D|------3-----------------------2-----------------------------------|
A|---0-----------------------3--------------------------2-----------|
E|---------------------------------------------------3--------------|

E|---------------------------|
B|---------1--1--3--3--1--1--|
G|---------------------------| REPEAT x3!!! :))
D|------2--------------------|
A|---2-----------------------|
E|---------------------------|


Guitar Tab Creator is intended to store guitar tab created through the tool. It currently does not support in-line text editing. Any text you place in here will be lost. If you need to comment on your tab, please use the "Tab Notes" section located below.